X-Music TR

Türkiye'nin Müzik Expressine Binmeye Hazır Mısınız?
 
AnasayfaAnasayfa  KapıKapı  SSSSSS  Kayıt OlKayıt Ol  Giriş yapGiriş yap  

Paylaş | 
 

 The Mission (Tab)

Önceki başlık Sonraki başlık Aşağa gitmek 
YazarMesaj
Kumi-Kiro
Moderatör


Mesaj Sayısı : 153
Kayıt tarihi : 10/08/08
Yaş : 22
Nerden : Kiro'm nerdeyse ordan :)

MesajKonu: The Mission (Tab)   Perş. Ağus. 14, 2008 2:31 pm

Drop D + Half a step flat (Db Ab Db Gb Bb eb)


Verse

Guitar 1
eb|-----------------------------------------------------------|
Bb|-----------------------------------------------------------|
Gb|--4-4-4-4-4-4-4-4/7-7-7-7-7-7-7-7/11-11-11-11-11-11-11-11--|
Db|-----------------------------------------------------------|
Ab|-----------------------------------------------------------|
Db|-----------------------------------------------------------|

eb|------------------------------------------------|
Bb|------------------------------------------------| * Guitar 1 Comes
Gb|--12-12-12-12-12p11-11-11-12-12-12-12-13-13-14--| in after Guitar 2
Db|------------------------------------------------| play's riff once.
Ab|------------------------------------------------|
Db|------------------------------------------------|

Guitar 2
.............................................................
eb|------------------------------------------------------------------|
Bb|------------------------------------------------------------------|
Gb|------------------------------------------------------------------|
Db|----------------------------------------------4444444444444-4-4---|
Ab|--222222222222222255555555555555554444444444442222222222222-2-2---|
Db|--22222222222222225555555555555555444444444444--------------------|
.............................................................


Chorus 1

Guitar 1
eb|-----------------------------------------------------------------|
Bb|----------9------------------------------------------------------|
Gb|--12--13-----12--14--16--17--14--16--18--19--16--16--18--19--16--|
Db|-----------------------------------------------------------------|
Ab|-----------------------------------------------------------------|
Db|-----------------------------------------------------------------|

Guitars 1 & 2
eb|--------------------------------------------------------------------|
Bb|--------------------------------------------------------------------|
Gb|--9-99--9-99--10-9-99--------9-99--9-99-----------------------------|
Db|--9-99--9-99--10-9-99--------9-99--9-99--9-9-9-9-91010101011111111--|
Ab|--7-77--7-77--8--7-77--------7-77--7-77--9-9-9-9-91010101011111111--|
Db|-----------------------------------------9-9-9-9-91010101011111111--|


Bridge 1

Guitar 1
eb|----------------------|
Bb|----------------------| x5
Gb|--5/7~--\5\4~--9999~--|
Db|----------------------|
Ab|----------------------|
Db|----------------------|

Guitar 2
eb|---------------------------------------------------|
Bb|---------------------------------------------------|
Gb|---------------------------------------------------|
Db|--11-11-11-11-11-11-11-11-10-10-10-10-10-10-10-10--|
Ab|--11-11-11-11-11-11-11-11-10-10-10-10-10-10-10-10--|
Db|--11-11-11-11-11-11-11-11-10-10-10-10-10-10-10-10--|

eb|-----------------------------------------------------------|
Bb|-----------------------------------------------------------|
Gb|-----------------------------------------------------------|
Db|--9-9-9-9-9-9-9-9-9-9-9-9-9-9-9-9-11-11-11-11-11-11-11-11--|
Ab|--9-9-9-9-9-9-9-9-9-9-9-9-9-9-9-9-11-11-11-11-11-11-11-11--|
Db|--9-9-9-9-9-9-9-9-9-9-9-9-9-9-9-9-11-11-11-11-11-11-11-11--|

eb|----------------------------------------------------------------|
Bb|----------------------------------------------------------------|
Gb|----------------------------------------------------------------|
Db|--10-10-10-10-10-10-10-10-9-9-9-9-9-9-9-9-9-9-9-9-9-9-9-9-10-9--|
Ab|--10-10-10-10-10-10-10-10-9-9-9-9-9-9-9-9-9-9-9-9-9-9-9-9-10-9--|
Db|--10-10-10-10-10-10-10-10-9-9-9-9-9-9-9-9-9-9-9-9-9-9-9-9-10-9--|

eb|---------------------------------------------------|
Bb|---------------------------------------------------|
Gb|---------------------------------------------------|
Db|--11-11-11-11-11-11-11-11-10-10-10-10-10-10-10-10--|
Ab|--11-11-11-11-11-11-11-11-10-10-10-10-10-10-10-10--|
Db|--11-11-11-11-11-11-11-11-10-10-10-10-10-10-10-10--|

eb|-----------------------------------------------------------|
Bb|-----------------------------------------------------------|
Gb|-----------------------------------------------------------|
Db|--9-9-9-9-9-9-9-9-9-9-9-9-9-9-9-9-11-11-11-11-11-11-11-11--|
Ab|--9-9-9-9-9-9-9-9-9-9-9-9-9-9-9-9-11-11-11-11-11-11-11-11--|
Db|--9-9-9-9-9-9-9-9-9-9-9-9-9-9-9-9-11-11-11-11-11-11-11-11--|

eb|--------------------------------------------------------------------|
Bb|--------------------------------------------------------------------|
Gb|--------------------------------------------------------------------|
Db|--10-10-10-10-10-10-10-10-9-9-9-9-9-9-9-9-9-9-9-9-9-9-9-9-10-9-10\--|
Ab|--10-10-10-10-10-10-10-10-9-9-9-9-9-9-9-9-9-9-9-9-9-9-9-9-10-9-10\--|
Db|--10-10-10-10-10-10-10-10-9-9-9-9-9-9-9-9-9-9-9-9-9-9-9-9-10-9-10\--|


Chorus 2

Guitar 1
eb|-----------------------------------------------------------------|
Bb|----------9------------------------------------------------------|
Gb|--12--13-----12--14--16--17--14--16--18--19--16--16--18--19--16--|
Db|-----------------------------------------------------------------|
Ab|-----------------------------------------------------------------|
Db|-----------------------------------------------------------------|

guitars 1 & 2
eb|-----------------------| * Played after Guitar 1's Riff
Bb|-----------------------| x2
Gb|--9-99--9-99--10-9-99--|
Db|--9-99--9-99--10-9-99--|
Ab|--7-77--7-77--8--7-77--|
Db|-----------------------|


Bridge 2

Guitar 1
eb|-----------------------------------------------------------------|
Bb|----------9------------------------------------------------------| x3
Gb|--12--13-----12--14--16--17--14--16--18--19--16--16--18--19--16--|
Db|-----------------------------------------------------------------|
Ab|-----------------------------------------------------------------|
Db|-----------------------------------------------------------------|

Guitar 2
eb|----------| |----------| x2
Bb|----------| x8 |----------| x24
Gb|--h21p20--| |--h22p21--|
Db|----------| |----------|
Ab|----------| |----------|
Db|----------| |----------|


Outro

Guitars 1 & 2
eb|----------------------------------------------------------|
Bb|----------------------------------------------------------|
Gb|--h9----10---11-/14-11--13-9---10---11-16\15-11--9-10-11--|
Db|--h9----10---11-/14-11--11-9---10---11-16\15-11--9-10-11--|
Ab|--h7----8----9--/12-9---11-7---8----9--14\13-9---7-8--10--|
Db|----------------------------------------------------------|

. . . .
eb|--------------------------------------------------------------------|
Bb|--------------------------------------------------------------------|
Gb|--h9----10---11-/14-11--13-9---10--10-10-10-11--16\15-11--9\7/99-9--|
Db|--h9----10---11-/14-11--11-9---10--10-10-10-11--16\15-11--9\7/99-9--|
Ab|--h7----8----9--/12-9---11-7---8---8--8--8--9---14\13-9---7\5/77-7--|
Db|--------------------------------------------------------------------|
. . . .

_________________

Sayfa başına dön Aşağa gitmek
Kullanıcı profilini gör http://tatu.turkforumpro.com
 
The Mission (Tab)
Önceki başlık Sonraki başlık Sayfa başına dön 
1 sayfadaki 1 sayfası

Bu forumun müsaadesi var:Bu forumdaki mesajlara cevap veremezsiniz
X-Music TR :: Rock :: Emo :: Gruplar ve Şarkıcılar :: 30 Second to Mars :: Akor-Tab-Nota-
Buraya geçin: