X-Music TR

Türkiye'nin Müzik Expressine Binmeye Hazır Mısınız?
 
AnasayfaAnasayfa  KapıKapı  SSSSSS  Kayıt OlKayıt Ol  Giriş yapGiriş yap  

Paylaş | 
 

 93 Million Miles (Tab)

Önceki başlık Sonraki başlık Aşağa gitmek 
YazarMesaj
Kumi-Kiro
Moderatör
avatar

Mesaj Sayısı : 153
Kayıt tarihi : 10/08/08
Yaş : 23
Nerden : Kiro'm nerdeyse ordan :)

MesajKonu: 93 Million Miles (Tab)   Perş. Ağus. 14, 2008 2:23 pm

-Intro (clean with chorus and swell) add dist.
eb :---------------------------------------------------|
Bb :---3------------------3------------------------3---|
Gb :---2---9---5---7------2---9---5---7------------2---|
Db :---0---7---3---5------0---7---3---5------------0---|
Ab :---0---7---3---5------0---7---3---5------------0---|
Db :---0---7---3---5------0---7---3---5------------0---|


-Verse
Where does your garden grow? Tell me the secrets that you know
eb :-----------------------------------------------------------------------------|
Bb :--------------8-----------------8-----------------8-----------------10---8---|
Gb :-----9---10-------10---9---10-------10---9---10-------10---9---10------------|
Db :---7---7----7---7----7---7----7---7----7---7----7---7----7---7----7----7-----|
Ab :-----------------------------------------------------------------------------|
Db :-----------------------------------------------------------------------------|

Another time, another place
eb :-------------------------------------------------------------------------|
Bb :--------------8-----------------8-----------------8-----------------11---|
Gb :-----9---10-------10---9---10-------10---9---10-------10---9---10--------|
Db :---7---7----7---7----7---7----7---7----7---7----7---7----7---7----7------|
Ab :-------------------------------------------------------------------------|
Db :-------------------------------------------------------------------------|

Where are the holy ones? Selling the secret to the sun
eb :-----------------------------------------------------------------------------|
Bb :--------------8-----------------8-----------------8-----------------10---8---|
Gb :-----9---10-------10---9---10-------10---9---10-------10---9---10------------|
Db :---7---7----7---7----7---7----7---7----7---7----7---7----7---7----7----7-----|
Ab :-----------------------------------------------------------------------------|
Db :-----------------------------------------------------------------------------|

Welcome to the Universe
eb :-----------------------------------------------------------------------------|
Bb :--------------8-----------------8-----------------8-----------------11-(10)--|
Gb :-----9---10-------10---9---10-------10---9---10-------10---9---10------------|
Db :---7---7----7---7----7---7----7---7----7---7----7---7----7---7----7----------|
Ab :-----------------------------------------------------------------------------|
Db :-----------------------------------------------------------------------------|


[Pause]
Cross the line..
Redefine...
Lose your mind, come crawl inside...

-Chorus
Hey! Hey! What've you got? Doesn't matter to me cuz I don't want them
eb :-------------------------------------------------------------------------------------|
Bb :-------------------------------------------------------------------------------------|
Gb :--------------------------------9/10-------------------------------------------------|
Db :---5-5-5-5-5--5-5-5-5-----------9/10-7/8\7/8\7/8-----------------------5-5-5/10--7---|
Ab :---5-5-5-5-5--5-5-5-5-----------7/-8-7/8\7/8\7/8-----------------------5-5-5/10--7---|
Db :---5-5-5-5-5--5-5-5-5----------------7/8\7/8\7/8-----------------------5-5-5/10--7---|

I'm not the only one
eb :---------------------------------------------------------|
Bb :---------------------------------------------------------|
Gb :------------------------9/10-----------------------------|
Db :---5-5-5-5-5--5-5-5-5---9/10-7/8\7/8\7/8---5-5-5/10--8---|
Ab :---5-5-5-5-5--5-5-5-5---7/-8-7/8\7/8\7/8---5-5-5/10--8---|
Db :---5-5-5-5-5--5-5-5-5--------7/8\7/8\7/8---5-5-5/10--8---|


-Verse
The unified divide Among and then deny
eb :-----------------------------------------------------------------------------|
Bb :--------------8-----------------8-----------------8-----------------10---8---|
Gb :-----9---10-------10---9---10-------10---9---10-------10---9---10------------|
Db :---7---7----7---7----7---7----7---7----7---7----7---7----7---7----7----7-----|
Ab :-----------------------------------------------------------------------------|
Db :-----------------------------------------------------------------------------|

Now could you kindly cut to the chase?
eb :----------------------------------------------------------------------------|
Bb :--------------8-----------------8-----------------8-----------------11--10--|
Gb :-----9---10-------10---9---10-------10---9---10-------10---9---10-----------|
Db :---7---7----7---7----7---7----7---7----7---7----7---7----7---7----7---------|
Ab :----------------------------------------------------------------------------|
Db :----------------------------------------------------------------------------|

It's like some other song Pretty but something's always wrong
eb :-----------------------------------------------------------------------------|
Bb :--------------8-----------------8-----------------8-----------------10---8---|
Gb :-----9---10-------10---9---10-------10---9---10-------10---9---10------------|
Db :---7---7----7---7----7---7----7---7----7---7----7---7----7---7----7----7-----|
Ab :-----------------------------------------------------------------------------|
Db :-----------------------------------------------------------------------------|
: |
: Guitar 2 (distorted, palm muted) |
:-----------------------------------------------------------------------------|
:-----------------------------------------------------------------------------|
:-----------------------------------------------------------------------------|
:---0-0-0-0-0-0-0-0-0-0-0-0-------------3-3-3-3-3-3-3-3-3-3-3-3---------------|
:---0-0-0-0-0-0-0-0-0-0-0-0-------------3-3-3-3-3-3-3-3-3-3-3-3---------------|
:---0-0-0-0-0-0-0-0-0-0-0-0-------------3-3-3-3-3-3-3-3-3-3-3-3---------------|

Show me a secret Mason sign
eb :-----------------------------------------------------------------------------|
Bb :--------------8-----------------8-----------------8-----------------11-(10)--|
Gb :-----9---10-------10---9---10-------10---9---10-------10---9---10------------|
Db :---7---7----7---7----7---7----7---7----7---7----7---7----7---7----7----------|
Ab :-----------------------------------------------------------------------------|
Db :-----------------------------------------------------------------------------|
: |
: Guitar 2 (distorted, palm muted) |
:-----------------------------------------------------------------------------|
:-----------------------------------------------------------------------------|
:---5-5-5-5-5-5-5-5-5-5--7-5\----------------------------------9--10\---------|
:---5-5-5-5-5-5-5-5-5-5--7-5\-------------7-7--7-7-7--7-7-7-7--9--10\---------|
:---3-3-3-3-3-3-3-3-3-3--5-3\-------------7-7--7-7-7--7-7-7-7--7---8\---------|
:-----------------------------------------7-7--7-7-7--7-7-7-7-----------------|


Cross the line Redefine Lose your mind, come crawl inside
eb :-----------------------------------------------------------------------------|
Bb :---3-------------6-----------------------------------------------------------|
Gb :---2-------------5---------5--------------------9----------------------------|
Db :---0-------------3---------5--------------------7------------7-7-8--7-7-10---|
Ab :---0-------------3---------3--------------------7------------7-7-8--7-7-10---|
Db :---0-------------3------------------------------7------------7-7-8--7-7-10---|
x x x x

-Chorus

Hey! Hey! What've you got? Doesn't matter to me cuz I don't want them
eb :-------------------------------------------------------------------------------------|
Bb :-------------------------------------------------------------------------------------|
Gb :--------------------------------9/10-------------------------------------------------|
Db :---5-5-5-5-5--5-5-5-5-----------9/10-7/8\7/8\7/8-----------------------5-5-5/10--7---|
Ab :---5-5-5-5-5--5-5-5-5-----------7/-8-7/8\7/8\7/8-----------------------5-5-5/10--7---|
Db :---5-5-5-5-5--5-5-5-5----------------7/8\7/8\7/8-----------------------5-5-5/10--7---|

I'm not the only one
eb :---------------------------------------------------------|
Bb :---------------------------------------------------------|
Gb :------------------------9/10-----------------------------|
Db :---5-5-5-5-5--5-5-5-5---9/10-7/8\7/8\7/8---5-5-5/10--8---|
Ab :---5-5-5-5-5--5-5-5-5---7/-8-7/8\7/8\7/8---5-5-5/10--8---|
Db :---5-5-5-5-5--5-5-5-5--------7/8\7/8\7/8---5-5-5/10--8---|

Hey! Hey! What've you got? Doesn't matter to me cuz I don't want them
eb :-------------------------------------------------------------------------------------|
Bb :-------------------------------------------------------------------------------------|
Gb :--------------------------------9/10-------------------------------------------------|
Db :---5-5-5-5-5--5-5-5-5-----------9/10-7/8\7/8\7/8-----------------------5-5-5/10--7---|
Ab :---5-5-5-5-5--5-5-5-5-----------7/-8-7/8\7/8\7/8-----------------------5-5-5/10--7---|
Db :---5-5-5-5-5--5-5-5-5----------------7/8\7/8\7/8-----------------------5-5-5/10--7---|

I'm not the only one
eb :--------------------------------------------------------------|
Bb :--------------------------------------------------------------|
Gb :------------------------9/10----------------------------------|
Db :---5-5-5-5-5--5-5-5-5---9/10-7/8\7/8\7/8---3-5/10-8-5--7--8---|
Ab :---5-5-5-5-5--5-5-5-5---7/-8-7/8\7/8\7/8---3-5/10-8-5--7--8---|
Db :---5-5-5-5-5--5-5-5-5--------7/8\7/8\7/8---3-5/10-8-5--7--8---|


-Bridge
See It's in your eyes Come break me down Come break me
eb :---------------------------------------------------------------------------------------------------|
Bb :---3-----------------------------------------------------------------------------------------------|
Gb :---2-----9-------------------5--------------------7-----------------------------/9-\5--7-----------|
Db :---0-----7-------------------3--------------------5-----------10-10-10-10-8-7-0-/7-\3--5--/12-10---|
Ab :---0-----7-------------------3--------------------5------0-0--10-10-10-10-8-7-0-/7-\3--5--/10--8---|
Db :---0-----7-------------------3--------------------5------0-0--10-10-10-10-8-7-0-/7-\3--5--/10--8---|
x x

eb :-----------------------------------------------------------------------------|
Bb :--------------8-----------------8-----------------8-----------------10---8---|
Gb :-----9---10-------10---9---10-------10---9---10-------10---9---10------------|
Db :---7---7----7---7----7---7----7---7----7---7----7---7----7---7----7----7-----|
Ab :-----------------------------------------------------------------------------|
Db :-----------------------------------------------------------------------------|
: |
: Guitar 2 (distorted, palm muted) |
:-----------------------------------------------------------------------------|
:---3-----------------------------------6-------------------------------------|
:---2-----------------------------------5-------------------------------------|
:---0-----------------------------------3-------------------------------------|
:---0-----------------------------------3-------------------------------------|
:---0-----------------------------------3-------------------------------------|

eb :-----------------------------------------------------------------------------|
Bb :--------------8-----------------8-----------------8-----------------11-(10)--|
Gb :-----9---10-------10---9---10-------10---9---10-------10---9---10------------|
Db :---7---7----7---7----7---7----7---7----7---7----7---7----7---7----7----------|
Ab :-----------------------------------------------------------------------------|
Db :-----------------------------------------------------------------------------|
: |
: Guitar 2 (distorted, palm muted) |
:-----------------------------------------------------------------------------|
:-----------------------------------------------------------------------------|
:--/5--------------------------------------------------------9/10-------------|
:--/5-------------------------------------7---7-8-7--/10-----9/10-------------|
:--/3-------------------------------------7---7-8-7--/10-----7/-8-------------|
:-----------------------------------------7---7-8-7--/10----------------------|
x

-Chrous
Hey! Hey! What've you got? Doesn't matter to me cuz I don't want them
eb :-------------------------------------------------------------------------------------|
Bb :-------------------------------------------------------------------------------------|
Gb :--------------------------------9/10-------------------------------------------------|
Db :---5-5-5-5-5--5-5-5-5-----------9/10-7/8\7/8\7/8-----------------------5-5-5/10--7---|
Ab :---5-5-5-5-5--5-5-5-5-----------7/-8-7/8\7/8\7/8-----------------------5-5-5/10--7---|
Db :---5-5-5-5-5--5-5-5-5----------------7/8\7/8\7/8-----------------------5-5-5/10--7---|

I'm not the only one
eb :--------------------------------------------------------------|
Bb :--------------------------------------------------------------|
Gb :------------------------9/10----------------------------------|
Db :---5-5-5-5-5--5-5-5-5---9/10-7/8\7/8\7/8---3-5-3\2/3-5-3-/7---|
Ab :---5-5-5-5-5--5-5-5-5---7/-8-7/8\7/8\7/8---3-5-3\2/3-5-3-/7---|
Db :---5-5-5-5-5--5-5-5-5--------7/8\7/8\7/8---3-5-3\2/3-5-3-/7---|

Hey! Hey! What've you got? Doesn't matter to me cuz I don't want them
eb :-------------------------------------------------------------------------------------|
Bb :-------------------------------------------------------------------------------------|
Gb :--------------------------------9/10-------------------------------------------------|
Db :---5-5-5-5-5--5-5-5-5-----------9/10-7/8\7/8\7/8-----------------------5-5-5/10--7---|
Ab :---5-5-5-5-5--5-5-5-5-----------7/-8-7/8\7/8\7/8-----------------------5-5-5/10--7---|
Db :---5-5-5-5-5--5-5-5-5----------------7/8\7/8\7/8-----------------------5-5-5/10--7---|

I'm not the only one
eb :--------------------------------------------------------------|
Bb :--------------------------------------------------------------|
Gb :------------------------9/10----------------------------------|
Db :---5-5-5-5-5--5-5-5-5---9/10-7/8\7/8\7/8---3-5/10-8-5--7--8---|
Ab :---5-5-5-5-5--5-5-5-5---7/-8-7/8\7/8\7/8---3-5/10-8-5--7--8---|
Db :---5-5-5-5-5--5-5-5-5--------7/8\7/8\7/8---3-5/10-8-5--7--8---|

_________________

Sayfa başına dön Aşağa gitmek
Kullanıcı profilini gör http://tatu.turkforumpro.com
 
93 Million Miles (Tab)
Önceki başlık Sonraki başlık Sayfa başına dön 
1 sayfadaki 1 sayfası

Bu forumun müsaadesi var:Bu forumdaki mesajlara cevap veremezsiniz
X-Music TR :: Rock :: Emo :: Gruplar ve Şarkıcılar :: 30 Second to Mars :: Akor-Tab-Nota-
Buraya geçin: