X-Music TR

Türkiye'nin Müzik Expressine Binmeye Hazır Mısınız?
 
AnasayfaAnasayfa  KapıKapı  SSSSSS  Kayıt OlKayıt Ol  Giriş yapGiriş yap  

Paylaş | 
 

 To The End (Tab)

Önceki başlık Sonraki başlık Aşağa gitmek 
YazarMesaj
Kumi-Kiro
Moderatör
avatar

Mesaj Sayısı : 153
Kayıt tarihi : 10/08/08
Yaş : 23
Nerden : Kiro'm nerdeyse ordan :)

MesajKonu: To The End (Tab)   Perş. Ağus. 14, 2008 2:15 pm

Verse One:
("Now come on, come all, to this tragic affair" ... "You might wake up and notice you're
you're not")
G|---------------REST---------------|
D|---------------REST---------------|
A|---------------REST---------------|
E|---------------REST---------------|

Verse Two:
("If you look in the mirror and don't like what you see" ... "I'd encourage your smiles,
expect you won't cry")

Chorus:
("Yeah, yeah")
G|---------------------------------------------------------|
D|---------------------------------------------------------|
A|---------------------------------------------------------|
E|-3--3--3-5-7-5--3-0--0--2--0--9--9--9--9/11-8-8--8--8/10-|

Verse Three:
("Another contusion, my funeral jag" ... "When I grow up I want to be nothing at all")

Chorus:
("I said yeah, yeah!")
G|---------------------------------------------------------|
D|---------------------------------------------------------|
A|---------------------------------------------------------|
E|-3--3--3-5-7-5--3-0--0--2--0--9--9--9--9/11-8-8--8--8/10-|

Outro:
("Come on, come on" ... "Take me!")
G|---------------------------------------------------------|
D|---------------------------------------------------------|
A|---------------------------------------------------------|
E|-3--3--3-5-7-5--3-0--0--2--0--9--9--9--9/11-8-8--8--8/10-|

G|---------------------------------------------------------|
D|---------------------------------------------------------|
A|---------------------------------------------------------|
E|-3--3--3-5-7-5--3-0--0--2--0--9--9--9--9/11-8-8--8--8/10-|

_________________

Sayfa başına dön Aşağa gitmek
Kullanıcı profilini gör http://tatu.turkforumpro.com
 
To The End (Tab)
Önceki başlık Sonraki başlık Sayfa başına dön 
1 sayfadaki 1 sayfası

Bu forumun müsaadesi var:Bu forumdaki mesajlara cevap veremezsiniz
X-Music TR :: Rock :: Emo :: Gruplar ve Şarkıcılar :: My Chemical Romance :: Akor-Tab-Nota-
Buraya geçin: