X-Music TR

Türkiye'nin Müzik Expressine Binmeye Hazır Mısınız?
 
AnasayfaAnasayfa  KapıKapı  SSSSSS  Kayıt OlKayıt Ol  Giriş yapGiriş yap  

Paylaş | 
 

 This Is How I Disappear (Tab)

Önceki başlık Sonraki başlık Aşağa gitmek 
YazarMesaj
Kumi-Kiro
Moderatör


Mesaj Sayısı : 153
Kayıt tarihi : 10/08/08
Yaş : 22
Nerden : Kiro'm nerdeyse ordan :)

MesajKonu: This Is How I Disappear (Tab)   Perş. Ağus. 14, 2008 2:11 pm

Intro
|--------------------|
|--------------------| X2
|-5~-----------------|
|------5~---3----1-5-|

|--------------------------------------|
|--------------------------------------|
|-55555555-----------------------------|
|----------55555555-33333333-1111-5555-|

Verse
|-----------------------------------------------------------------|
|-----------------------------------------------------------------|
|-5-5-5-5---------3-3-3-3---------1-1-1-1-------------------------|
|---------3-3-3-3---------1-1-1-1---------0-0-0-0-5-5-5-5-5-5-5-5-|

|------------------------------------------------------------------|
|------------------------------------------------------------------|
|-5-5-5-5---------3-3-3-3---------1-1-1-1--------------------------|
|---------3-3-3-3---------1-1-1-1---------0-0-0-0-5555555555555555-|

|-------------|
|---3-2---555-|
|-5-----4-----|
|-------------|

Chorus
|--------------------------------------|
|--------------------------------------|
|-55555555----------33333333-----------|
|----------33333333----------1111-0000-|

|-------------------------------------|
|-------------------------------------|
|-55555555----------33333333----------|
|----------33333333----------55555555-|

|--------------------------------------|
|--------------------------------------|
|-55555555----------33333333-----------|
|----------33333333----------1111-0000-|

|------------------------------------|
|------------------------------------|
|-55555555---------------------------|
|----------33333333-5555555555555555-|

Verse
|------------------------------------------------------------------------|
|------------------------------------------------------------------------| X2
|-55555555----------33333333----------11111111---------------------------|
|----------33333333----------11111111----------00000000-5555555555555555-|

|-------------|
|---3-2---555-|
|-5-----4-----|
|-------------|

Chorus
|--------------------------------------|
|--------------------------------------|
|-55555555----------33333333-----------|
|----------33333333----------1111-0000-|

|-------------------------------------|
|-------------------------------------|
|-55555555----------33333333----------|
|----------33333333----------55555555-|

|--------------------------------------|
|--------------------------------------|
|-55555555----------33333333-----------|
|----------33333333----------1111-0000-|

|------------------------------------|
|------------------------------------|
|-55555555---------------------------|
|----------33333333-5555555555555555-|

Bridge
|--------------------------------------------------------------------------------|
|--------------------------------------------------------------------------------|
|-5~------5h7-3---3h5-----4---5---15\-55555555------------------3333333333333333-|
|---------------------5------------------------3333333333333333------------------|

|--------------------------------------------------------------------------------------|
|--------------------3-2---555----3-2---555----3-2--------3-2-----------3-2--------3-2-|
|------------------5-----4------5-----4------5-----4----5-----4-xxxx--5-----4----5-----|
|-5555555555555555-----------------------------------3------------------------3--------|

|--------------------------------------------------------------|
|--------------------------------------------------------------|
|-5555555555555555------------------3333333333333333-----------|
|------------------3333333333333333------------------1111-0000-|

|---------------------------------------------------------------------|
|---------------------------------------------------------------------|
|-5555555555555555------------------3333333333333333------------------|
|------------------3333333333333333------------------5555555555555555-|

Chorus
|--------------------------------------|
|--------------------------------------|
|-55555555----------33333333-----------|
|----------33333333----------1111-0000-|

|-------------------------------------|
|-------------------------------------|
|-55555555----------33333333----------|
|----------33333333----------55555555-|

|--------------------------------------|
|--------------------------------------|
|-55555555----------33333333-----------|
|----------33333333----------1111-0000-|

|-------------------------------------------------------|
|-------------------------------------------------------|
|-55555555-------------------------------------------5~-|
|----------33333333-55555555555555555555555555555555----|

_________________

Sayfa başına dön Aşağa gitmek
Kullanıcı profilini gör http://tatu.turkforumpro.com
 
This Is How I Disappear (Tab)
Önceki başlık Sonraki başlık Sayfa başına dön 
1 sayfadaki 1 sayfası

Bu forumun müsaadesi var:Bu forumdaki mesajlara cevap veremezsiniz
X-Music TR :: Rock :: Emo :: Gruplar ve Şarkıcılar :: My Chemical Romance :: Akor-Tab-Nota-
Buraya geçin: