X-Music TR

Türkiye'nin Müzik Expressine Binmeye Hazır Mısınız?
 
AnasayfaAnasayfa  KapıKapı  SSSSSS  Kayıt OlKayıt Ol  Giriş yapGiriş yap  

Paylaş | 
 

 I Don't Love You (Akor)

Önceki başlık Sonraki başlık Aşağa gitmek 
YazarMesaj
Kumi-Kiro
Moderatör
avatar

Mesaj Sayısı : 153
Kayıt tarihi : 10/08/08
Yaş : 23
Nerden : Kiro'm nerdeyse ordan :)

MesajKonu: I Don't Love You (Akor)   Perş. Ağus. 14, 2008 2:11 pm

Intro :
Gtr 2
e|--12----12----12----12-----|--12----12----12----12-----|
B|--13----13----13----13-----|--13----13----13----13-----|
G|-----12----12----12----12--|-----12----12----12----12--|
D|---------------------------|---------------------------|
A|---------------------------|---------------------------|
E|---------------------------|---------------------------|
Burdan sonra ikinci gitar giriyo
Gtr 1
e|-----------------------------------|-----------------------------------|
B|-----------------------------------|-----------------------------------|
G|--5-5-5-5-5-5-5-5-5-5-5-5-5-5-5-5--|-----------------------------------|
D|--5-5-5-5-5-5-5-5-5-5-5-5-5-5-5-5--|--7-7-7-7-7-7-7-7-7-7-7-7-7-7-7-7--|
A|--3-3-3-3-3-3-3-3-3-3-3-3-3-3-3-3--|--7-7-7-7-7-7-7-7-7-7-7-7-7-7-7-7--|
E|-----------------------------------|--5-5-5-5-5-5-5-5-5-5-5-5-5-5-5-5--|

e|-----------------------------------|-----------------------------------|
B|-----------------------------------|-----------------------------------|
G|-----------------------------------|-----------------------------------|
D|--5-5-5-5-5-5-5-5-5-5-5-5-5-5-5-5--|--3-3-3-3-3-3-3-3-5-5-5-5-5-5-5-5--|
A|--5-5-5-5-5-5-5-5-5-5-5-5-5-5-5-5--|--3-3-3-3-3-3-3-3-5-5-5-5-5-5-5-5--|
E|--3-3-3-3-3-3-3-3-3-3-3-3-3-3-3-3--|--1-1-1-1-1-1-1-1-3-3-3-3-3-3-3-3--|

Gtr 2
e|--12----12----12----12----13----13----12----12-----|
B|--13----13----13----13----13----13----13----13-----|
G|-----12----12----12----12----12----12----12----12--|
D|---------------------------------------------------|
A|---------------------------------------------------|
E|---------------------------------------------------|

e|--12----12----12----12----13----13----12----12-----|
B|--13----13----13----13----13----13----13----13-----|
G|-----14----14----14----14----14----14----14----14--|
D|---------------------------------------------------|
A|---------------------------------------------------|
E|---------------------------------------------------|

e|--10----10----10----10----10----10----10----10-----|
B|--13----13----13----13----12----12----13----13-----|
G|-----12----12----12----12----12----12----12----12--|
D|---------------------------------------------------|
A|---------------------------------------------------|
E|---------------------------------------------------|

e|--12----12----12----12----10----10-----------------|
B|--------------------------------------12----13-----|
G|-----12----12----12----12----12----12----12----12--|
D|---------------------------------------------------|
A|---------------------------------------------------|
E|---------------------------------------------------|
(bi süre böyle devam ediyo)

C
Well when you go
Am
don't ever think i'll make you try to stay
G
and maybe when you get back
C
I'll be off to find another way
C
And after all this time that you still owe
Am
you're still the good for nothing i don't know
G
so take your gloves and get out, better get out
C
while you can

Chorus:
F G
When you go
G/G# A5 G5 F5
would you even turn to say
F/E F
i don't love you
G
like i did
C
yesterday

Verse:
C
sometimes i cry so hard from pleading
Am
so sick and tired of all the needless beating
G
but baby when they knock you down and out
C
it's where you oughta stay
C
and after all the blood that you still owe
Am
another dollar's just another blow
G
so fix your eyes and get up, better get up
C
while you can

Chorus2: (as before)
Guitar solo: (chords as for chorus)
Chorus3:
F G
When you go
G/G# A5 G5 F5
would you have the guts to say
F/E F
i don't love you
G
like i loved you
C C/B A G
yesterday
F
i don't love you
G
like i loved you
C C/B A G
yesterday
F
i don't love you
G
like i loved you
C
yesterday

Solo:

------------------------------------------------------------------------
-10------13------12------12-------------------12-10-12-13-10-12-13-15^17
-12^14---15^17---14^16-------14-12---12-13-14---------------------------
------------------------------------------------------------------------
------------------------------------------------------------------------
------------------------------------------------------------------------

_________________

Sayfa başına dön Aşağa gitmek
Kullanıcı profilini gör http://tatu.turkforumpro.com
 
I Don't Love You (Akor)
Önceki başlık Sonraki başlık Sayfa başına dön 
1 sayfadaki 1 sayfası

Bu forumun müsaadesi var:Bu forumdaki mesajlara cevap veremezsiniz
X-Music TR :: Rock :: Emo :: Gruplar ve Şarkıcılar :: My Chemical Romance :: Akor-Tab-Nota-
Buraya geçin: