X-Music TR

Türkiye'nin Müzik Expressine Binmeye Hazır Mısınız?
 
AnasayfaAnasayfa  KapıKapı  SSSSSS  Kayıt OlKayıt Ol  Giriş yapGiriş yap  

Paylaş | 
 

 House Of Wolves (Tab)

Önceki başlık Sonraki başlık Aşağa gitmek 
YazarMesaj
Kumi-Kiro
Moderatör
avatar

Mesaj Sayısı : 153
Kayıt tarihi : 10/08/08
Yaş : 22
Nerden : Kiro'm nerdeyse ordan :)

MesajKonu: House Of Wolves (Tab)   Perş. Ağus. 14, 2008 2:10 pm

Intro (after the pickslides)\
G|--------------------------------------|
D|--------------------------------------|
A|--7--x--x--5--x--x--3--x--2--2--2--2--|
E|--------------------------------------|

G|--------------------------------------|
D|--------------------------------------|
A|--7--x--x--5--x--x--3--x--2--2--2--2--|
E|--------------------------------------|

G|----------------------------------------|
D|----------------------------------------|
A|--7--x--x--9--x--x--10--10--9--9--9--9--|
E|----------------------------------------|

G|--------------------------------------|
D|--------------------------------------|
A|--7--x--x--5--x--x--3--x--2--2--2--2--|
E|--------------------------------------|


Verse 1
G|--------------------------------------------------|
D|--------------------------------------------------|
A|--------------3-3-3--3-3--------------2-2-2--2-2--|
E|--0-0-0--0-0--------------3-3-3--3-3--------------|

G|--------------------------------------------------|
D|--------------------------------------------------|
A|--------------3-3-3--3-3--------------2-2-2--2-2--|
E|--0-0-0--0-0--------------3-3-3--3-3--------------|

G|--------------------------------------------------------------|
D|--------------------------------------------------------------|
A|---------------3-3-2-2-0-0-0--3-3-2-2-0-0-0--2-2-2-0-0-0------|
E|--0-0-2-0-0-0--------------------------------------------3-2--|

G|---------------------------------------------|
D|---------------------------------------------|
A|---------------3-3-2-2-0-0-0--3-3-2-2-0-0-0--|
E|--0-0-2-0-0-0--------------------------------|


Pre-Chorus
G|------------------------------------------|
D|------------------------------------------|
A|--2-2-2-2-2---2-3~-------3-5~-----5-6~----|
E|------------------------------------------|


Chorus
G|----------------------------------------------------------------------|
D|--2-2-2-2-2-2-2-0-----------------------------------------------------|
A|-------------------3-3-3-3-3-3-3-3-------------------2-2-2-2-2-2-2-2--|
E|------------------------------------3-3-3-3-3-3-3-3-------------------|

G|----------------------------------------------------------------------|
D|--2-2-2-2-2-2-2-0-----------------------------------------------------|
A|-------------------3-3-3-3-3-3-3-3-------------------2-2-2-2-2-2-2-2--|
E|------------------------------------3-3-3-3-3-3-3-3-------------------|


Post-Chorus
G|--------------------------------------|
D|--------------------------------------|
A|--7--x--x--5--x--x--3--x--2--2--2--2--|
E|--------------------------------------|

G|--------------------------------------|
D|--------------------------------------|
A|--7--x--x--5--x--x--3--x--2--2--2--2--|
E|--------------------------------------|

G|----------------------------------------|
D|----------------------------------------|
A|--7--x--x--9--x--x--10--10--9--9--9--9--|
E|----------------------------------------|

G|--------------------------------------|
D|--------------------------------------|
A|--7--x--x--5--x--x--3--x--2--2--2--2--|
E|--------------------------------------|


Verse 2
G|--------------------------------------------------|
D|--------------------------------------------------|
A|--------------3-3-3--3-3--------------2-2-2--2-2--|
E|--0-0-0--0-0--------------3-3-3--3-3--------------|

G|--------------------------------------------------|
D|--------------------------------------------------|
A|--------------3-3-3--3-3--------------2-2-2--2-2--|
E|--0-0-0--0-0--------------3-3-3--3-3--------------|

G|----------------------------------------------------------------------|
D|----------------------------------------------------------------------|
A|-------------------3-3-3-2-2-0-0-0--3-3-3-2-2-0-0-0--0-0-0-2-2-0------|
E|--0-0-0-2-0-0-0-0------------------------------------------------3-2--|

G|-----------------------------------------------------|
D|-----------------------------------------------------|
A|-------------------3-3-3-2-2-0-0-0--3-3-3-2-2-0-0-0--|
E|--0-0-0-2-0-0-0-0------------------------------------|

Pre-Chorus
G|------------------------------------------|
D|------------------------------------------|
A|--2-2-2-2-2---2-3~-------3-5~-----5-6~----|
E|------------------------------------------|


Chorus
G|----------------------------------------------------------------------|
D|--2-2-2-2-2-2-2-0-----------------------------------------------------|
A|-------------------3-3-3-3-3-3-3-3-------------------2-2-2-2-2-2-2-2--|
E|------------------------------------3-3-3-3-3-3-3-3-------------------|

G|----------------------------------------------------------------------|
D|--2-2-2-2-2-2-2-0-----------------------------------------------------|
A|-------------------3-3-3-3-3-3-3-3-------------------2-2-2-2-2-2-2-2--|
E|------------------------------------3-3-3-3-3-3-3-3-------------------|


Bridge
G|-------------------------------------------------------------|
D|-------------------------------------------------------------|
A|-------------------------------------------------------------|
E|--0-0-0-0--3-5--0-0-0-0--3-5--0-0-0-0--3-5--0-0-0-0--3-5--0--|

G|---------------------------------|
D|---------------------------------|
A|---------------------------------|
E|--0-0-0-0--3-5--0-0-0-0--3-5--0--|

G|------------------------------|
D|-----------0-2-----------0-2--|
A|--2-2-2-2-------2-2-2-2-------|
E|------------------------------|

G|-------------------------------------------|
D|--2~---------------------------------------|
A|----------0~------2~--3~--0-2-0-2-0-2-0-2--|
E|-------------------------------------------|


Chorus
G|----------------------------------------------------------------------|
D|--2-2-2-2-2-2-2-0-----------------------------------------------------|
A|-------------------3-3-3-3-3-3-3-3-------------------2-2-2-2-2-2-2-2--|
E|------------------------------------3-3-3-3-3-3-3-3-------------------|

G|----------------------------------------------------------------------|
D|--2-2-2-2-2-2-2-0-----------------------------------------------------|
A|-------------------3-3-3-3-3-3-3-3-------------------2-2-2-2-2-2-2-2--|
E|------------------------------------3-3-3-3-3-3-3-3-------------------|


End
G|----------------------------------------------------------------------|
D|--2-2-2-2-2-2-2-0-----------------------------------------------------|
A|-------------------3-3-3-3-3-3-3-3-------------------2-2-2-2-2-2-2-2--|
E|------------------------------------3-3-3-3-3-3-3-3-------------------|

G|----------------------------------------------------------------------|
D|--2-2-2-2-2-2-2-0-----------------------------------------------------|
A|-------------------3-3-3-3-3-3-3-3-------------------2-2-2-2-2-2-2-2--|
E|------------------------------------3-3-3-3-3-3-3-3-------------------|

G|--------------------------------------|
D|--------------------------------------|
A|--7--x--x--5--x--x--3--x--2--2--2--2--|
E|--------------------------------------|

G|--------------------------------------|
D|--------------------------------------|
A|--7--x--x--5--x--x--3--x--2--2--2--2--|
E|--------------------------------------|

G|----------------------------------------|
D|----------------------------------------|
A|--7--x--x--9--x--x--10--10--9--9--9--9--|
E|----------------------------------------|

G|--------------------------------------|
D|--------------------------------------|
A|--7--x--x--5--x--x--3--5--3--2--------|
E|-----------------------------------0--|

_________________

Sayfa başına dön Aşağa gitmek
Kullanıcı profilini gör http://tatu.turkforumpro.com
 
House Of Wolves (Tab)
Önceki başlık Sonraki başlık Sayfa başına dön 
1 sayfadaki 1 sayfası

Bu forumun müsaadesi var:Bu forumdaki mesajlara cevap veremezsiniz
X-Music TR :: Rock :: Emo :: Gruplar ve Şarkıcılar :: My Chemical Romance :: Akor-Tab-Nota-
Buraya geçin: